ISO-10303-21;
HEADER;
FILE_DESCRIPTION (( 'STEP AP214' ),
    '1' );
FILE_NAME ('SF_BLKH_300.STEP',
    '2022-06-21T07:39:45',
    ( '' ),
    ( '' ),
    'SwSTEP 2.0',
    'SolidWorks 2020',
    '' );
FILE_SCHEMA (( 'AUTOMOTIVE_DESIGN' ));
ENDSEC;

DATA;
#1 = FILL_AREA_STYLE_COLOUR ( '', #134 ) ;
#2 = DIRECTION ( 'NONE',  ( -1.027528214424256061E-14, 0.000000000000000000, -1.000000000000000000 ) ) ;
#3 = ADVANCED_FACE ( 'NONE', ( #79 ), #319, .F. ) ;
#4 = ORIENTED_EDGE ( 'NONE', *, *, #92, .T. ) ;
#5 = DIRECTION ( 'NONE',  ( 0.000000000000000000, 1.000000000000000000, 0.000000000000000000 ) ) ;
#6 = DIRECTION ( 'NONE',  ( -1.658212899529295031E-29, 1.000000000000000000, -1.613788192140710016E-15 ) ) ;
#7 =( NAMED_UNIT ( * ) SI_UNIT ( $, .STERADIAN. ) SOLID_ANGLE_UNIT ( ) );
#8 = CARTESIAN_POINT ( 'NONE',  ( 8.742150885234400093, -130.1946386923281977, 63.41004786968498763 ) ) ;
#9 = EDGE_CURVE ( 'NONE', #157, #157, #266, .T. ) ;
#10 = CARTESIAN_POINT ( 'NONE',  ( 17.46211739126065154, -129.3141276216163931, 63.41004786968510132 ) ) ;
#11 = SURFACE_SIDE_STYLE ('',( #289 ) ) ;
#12 = PLANE ( 'NONE',  #223 ) ;
#13 = AXIS2_PLACEMENT_3D ( 'NONE', #307, #329, #275 ) ;
#14 = ADVANCED_FACE ( 'NONE', ( #212 ), #57, .F. ) ;
#15 = DIRECTION ( 'NONE',  ( 0.000000000000000000, 0.000000000000000000, 1.000000000000000000 ) ) ;
#16 = CARTESIAN_POINT ( 'NONE',  ( 126.8832876160330159, -33.74446150832325486, 63.41004786968398577 ) ) ;
#17 = CARTESIAN_POINT ( 'NONE',  ( 6.043058944962323153E-12, -7.485304737153736795E-12, 70.39642608271279300 ) ) ;
#18 = CIRCLE ( 'NONE', #68, 149.9999999999915872 ) ;
#19 = CARTESIAN_POINT ( 'NONE',  ( -66.60293160282110136, 113.1463957032871974, 63.41004786968598950 ) ) ;
#20 = EDGE_LOOP ( 'NONE', ( #161 ) ) ;
#21 = CARTESIAN_POINT ( 'NONE',  ( -261.9459782442592086, 130.9729891221260516, 63.32797554359584069 ) ) ;
#22 = CARTESIAN_POINT ( 'NONE',  ( -34.59347161163945827, 125.8187619879335983, 63.41004786968559870 ) ) ;
#23 = ORIENTED_EDGE ( 'NONE', *, *, #153, .F. ) ;
#24 = PRESENTATION_LAYER_ASSIGNMENT (  '', '', ( #238 ) ) ;
#25 = DIRECTION ( 'NONE',  ( 1.027528214424256061E-14, -0.000000000000000000, 1.000000000000000000 ) ) ;
#26 = AXIS2_PLACEMENT_3D ( 'NONE', #28, #31, #6 ) ;
#27 = SURFACE_STYLE_USAGE ( .BOTH. , #185 ) ;
#28 = CARTESIAN_POINT ( 'NONE',  ( 6.915368127771210527E-12, -1.000134774647258067E-11, 63.41004786968529316 ) ) ;
#29 = CARTESIAN_POINT ( 'NONE',  ( 6.526104552779270345E-12, -1.002916565331774195E-11, 49.45080988066140293 ) ) ;
#30 = MECHANICAL_DESIGN_GEOMETRIC_PRESENTATION_REPRESENTATION (  '', ( #238 ), #175 ) ;
#31 = DIRECTION ( 'NONE',  ( 1.027528214424256061E-14, 1.613788192140710016E-15, 1.000000000000000000 ) ) ;
#32 = SURFACE_STYLE_FILL_AREA ( #163 ) ;
#33 = ADVANCED_FACE ( 'NONE', ( #158, #312 ), #186, .T. ) ;
#34 = DIRECTION ( 'NONE',  ( -1.027528214424256061E-14, -1.613788192140710016E-15, -1.000000000000000000 ) ) ;
#35 = PRESENTATION_STYLE_ASSIGNMENT (( #55 ) ) ;
#36 = CARTESIAN_POINT ( 'NONE',  ( 6.915368127771200026E-12, 130.1946386251717911, 63.41004786968449025 ) ) ;
#37 =( LENGTH_UNIT ( ) NAMED_UNIT ( * ) SI_UNIT ( .MILLI., .METRE. ) );
#38 = CARTESIAN_POINT ( 'NONE',  ( 80.75472681969179689, -103.5216472773542051, 63.41004786968449025 ) ) ;
#39 = CARTESIAN_POINT ( 'NONE',  ( 34.59347161165265305, -125.8187619879477808, 63.41004786968488816 ) ) ;
#40 = PRODUCT_DEFINITION_SHAPE ( 'NONE', 'NONE',  #317 ) ;
#41 = DIRECTION ( 'NONE',  ( 1.615544574432570559E-15, 1.000000000000000000, -1.596044754835342373E-15 ) ) ;
#42 =( NAMED_UNIT ( * ) PLANE_ANGLE_UNIT ( ) SI_UNIT ( $, .RADIAN. ) );
#43 = CARTESIAN_POINT ( 'NONE',  ( 114.0106556174052059, 65.11242404048179822, 63.41004786968409945 ) ) ;
#44 = CARTESIAN_POINT ( 'NONE',  ( 6.961812873543260465E-12, -87.45586521154531567, 67.93009365724130078 ) ) ;
#45 = UNCERTAINTY_MEASURE_WITH_UNIT (LENGTH_MEASURE( 1.000000000000000082E-05 ), #80, 'distance_accuracy_value', 'NONE');
#46 = CARTESIAN_POINT ( 'NONE',  ( -17.46211739124770190, -129.3141276216163931, 63.41004786968548501 ) ) ;
#47 = PRESENTATION_LAYER_ASSIGNMENT (  '', '', ( #128 ) ) ;
#48 = DIRECTION ( 'NONE',  ( 1.615544574432581603E-15, 1.000000000000000000, 0.000000000000000000 ) ) ;
#49 = CARTESIAN_POINT ( 'NONE',  ( 7.931251325190585678E-12, -6.541208547039505769E-12, 70.39642608271279300 ) ) ;
#50 = ORIENTED_EDGE ( 'NONE', *, *, #9, .F. ) ;
#51 = APPLICATION_CONTEXT ( 'automotive_design' ) ;
#52 = PLANE ( 'NONE',  #115 ) ;
#53 = ORIENTED_EDGE ( 'NONE', *, *, #74, .F. ) ;
#54 = DIRECTION ( 'NONE',  ( -0.5877852522924779111, 0.8090169943749438985, 4.690075336372453824E-15 ) ) ;
#55 = SURFACE_STYLE_USAGE ( .BOTH. , #284 ) ;
#56 = FILL_AREA_STYLE ('',( #281 ) ) ;
#57 = PLANE ( 'NONE',  #197 ) ;
#58 = EDGE_CURVE ( 'NONE', #210, #210, #72, .T. ) ;
#59 = FACE_OUTER_BOUND ( 'NONE', #234, .T. ) ;
#60 = ORIENTED_EDGE ( 'NONE', *, *, #285, .F. ) ;
#61 = AXIS2_PLACEMENT_3D ( 'NONE', #104, #278, #54 ) ;
#62 = CARTESIAN_POINT ( 'NONE',  ( 6.644435584021240423E-12, -1.001113031801962169E-11, 60.62658585048399829 ) ) ;
#63 = PRESENTATION_STYLE_ASSIGNMENT (( #320 ) ) ;
#64 = DIRECTION ( 'NONE',  ( 1.027528214424256061E-14, -0.000000000000000000, 1.000000000000000000 ) ) ;
#65 =( NAMED_UNIT ( * ) SI_UNIT ( $, .STERADIAN. ) SOLID_ANGLE_UNIT ( ) );
#66 = CARTESIAN_POINT ( 'NONE',  ( 42.96138425140674855, -123.2127777851352022, 63.41004786968488816 ) ) ;
#67 = CARTESIAN_POINT ( 'NONE',  ( 80.75472681969289113, 103.5216472773393974, 63.41004786968449025 ) ) ;
#68 = AXIS2_PLACEMENT_3D ( 'NONE', #265, #332, #48 ) ;
#69 = CARTESIAN_POINT ( 'NONE',  ( 66.60293160283440272, -113.1463957033015930, 63.41004786968459683 ) ) ;
#70 = CARTESIAN_POINT ( 'NONE',  ( 174.9117304230835259, 87.45586521153128956, 67.93009365723949600 ) ) ;
#71 = CARTESIAN_POINT ( 'NONE',  ( 6.986044354531850425E-12, 43.75966040198539986, 70.28832388863277458 ) ) ;
#72 = CIRCLE ( 'NONE', #336, 150.0000000000000000 ) ;
#73 = FACE_OUTER_BOUND ( 'NONE', #88, .T. ) ;
#74 = EDGE_CURVE ( 'NONE', #252, #252, #263, .T. ) ;
#75 = CARTESIAN_POINT ( 'NONE',  ( -8.742150885221420253, -130.1946386923279988, 63.41004786968519369 ) ) ;
#76 = CYLINDRICAL_SURFACE ( 'NONE', #205, 149.9999999999915872 ) ;
#77 = AXIS2_PLACEMENT_3D ( 'NONE', #288, #85, #182 ) ;
#78 = VERTEX_POINT ( 'NONE', #135 ) ;
#79 = FACE_OUTER_BOUND ( 'NONE', #211, .T. ) ;
#80 =( LENGTH_UNIT ( ) NAMED_UNIT ( * ) SI_UNIT ( .MILLI., .METRE. ) );
#81 = ORIENTED_EDGE ( 'NONE', *, *, #225, .F. ) ;
#82 = MANIFOLD_SOLID_BREP ( 'Imported3', #213 ) ;
#83 = DIRECTION ( 'NONE',  ( 1.027528214424256061E-14, 1.613788192140710016E-15, 1.000000000000000000 ) ) ;
#84 = AXIS2_PLACEMENT_3D ( 'NONE', #240, #91, #191 ) ;
#85 = DIRECTION ( 'NONE',  ( -1.027528214424256061E-14, -1.613788192140710016E-15, -1.000000000000000000 ) ) ;
#86 =( GEOMETRIC_REPRESENTATION_CONTEXT ( 3 ) GLOBAL_UNCERTAINTY_ASSIGNED_CONTEXT ( ( #172 ) ) GLOBAL_UNIT_ASSIGNED_CONTEXT ( ( #235, #162, #318 ) ) REPRESENTATION_CONTEXT ( 'NONE', 'WORKASPACE' ) );
#87 = CARTESIAN_POINT ( 'NONE',  ( 0.000000000000000000, 0.000000000000000000, 0.000000000000000000 ) ) ;
#88 = EDGE_LOOP ( 'NONE', ( #81 ) ) ;
#89 = SURFACE_STYLE_USAGE ( .BOTH. , #118 ) ;
#90 = DIRECTION ( 'NONE',  ( 1.000000000000000000, 0.000000000000000000, 0.000000000000000000 ) ) ;
#91 = DIRECTION ( 'NONE',  ( -1.027528214424256061E-14, -1.613788192140710016E-15, -1.000000000000000000 ) ) ;
#92 = EDGE_CURVE ( 'NONE', #208, #208, #192, .T. ) ;
#93 = CARTESIAN_POINT ( 'NONE',  ( 17.46211739126200158, 129.3141276216021822, 63.41004786968510132 ) ) ;
#94 = PLANE ( 'NONE',  #310 ) ;
#95 = ADVANCED_FACE ( 'NONE', ( #220, #116 ), #198, .T. ) ;
#96 = UNCERTAINTY_MEASURE_WITH_UNIT (LENGTH_MEASURE( 1.000000000000000082E-05 ), #264, 'distance_accuracy_value', 'NONE');
#97 = CARTESIAN_POINT ( 'NONE',  ( -80.75472681967879396, -103.5216472773535941, 63.41004786968609608 ) ) ;
#98 = CARTESIAN_POINT ( 'NONE',  ( -8.742150885221070311, 130.1946386923139869, 63.41004786968519369 ) ) ;
#99 = CARTESIAN_POINT ( 'NONE',  ( -66.60293160282159874, -113.1463957033009962, 63.41004786968598950 ) ) ;
#100 = PRODUCT_RELATED_PRODUCT_CATEGORY ( 'part', '', ( #294 ) ) ;
#101 = CARTESIAN_POINT ( 'NONE',  ( 6.987155135076433817E-12, -6.541208547039545351E-12, 70.39642608271279300 ) ) ;
#102 = APPLICATION_CONTEXT ( 'automotive_design' ) ;
#103 = ORIENTED_EDGE ( 'NONE', *, *, #219, .F. ) ;
#104 = CARTESIAN_POINT ( 'NONE',  ( 7.231501517972960651E-12, -9.102934840036810501E-12, 63.41004786968529316 ) ) ;
#105 = ORIENTED_EDGE ( 'NONE', *, *, #254, .F. ) ;
#106 = AXIS2_PLACEMENT_3D ( 'NONE', #282, #188, #287 ) ;
#107 = ADVANCED_FACE ( 'NONE', ( #169 ), #12, .F. ) ;
#108 = EDGE_LOOP ( 'NONE', ( #53 ) ) ;
#109 =( NAMED_UNIT ( * ) SI_UNIT ( $, .STERADIAN. ) SOLID_ANGLE_UNIT ( ) );
#110 = DIRECTION ( 'NONE',  ( -1.658212899529295031E-29, 1.000000000000000000, -1.613788192140710016E-15 ) ) ;
#111 = AXIS2_PLACEMENT_3D ( 'NONE', #87, #15, #90 ) ;
#112 = ORIENTED_EDGE ( 'NONE', *, *, #254, .T. ) ;
#113 = CARTESIAN_POINT ( 'NONE',  ( 6.263811995130244439E-12, 149.9999999999915872, -1.818989403545857284E-12 ) ) ;
#114 = CARTESIAN_POINT ( 'NONE',  ( 6.647330622910820933E-12, -1.004344447474946002E-11, 37.32438899455944892 ) ) ;
#115 = AXIS2_PLACEMENT_3D ( 'NONE', #151, #25, #183 ) ;
#116 = FACE_OUTER_BOUND ( 'NONE', #247, .T. ) ;
#117 = CIRCLE ( 'NONE', #152, 152.1644589858684924 ) ;
#118 = SURFACE_SIDE_STYLE ('',( #195 ) ) ;
#119 = FILL_AREA_STYLE_COLOUR ( '', #129 ) ;
#120 = CARTESIAN_POINT ( 'NONE',  ( 114.0106556174046091, -65.11242404049698962, 63.41004786968409945 ) ) ;
#121 = CARTESIAN_POINT ( 'NONE',  ( 7.931251325190626068E-12, -7.485304737153656015E-12, 70.39642608271279300 ) ) ;
#122 = UNCERTAINTY_MEASURE_WITH_UNIT (LENGTH_MEASURE( 1.000000000000000082E-05 ), #37, 'distance_accuracy_value', 'NONE');
#123 = CARTESIAN_POINT ( 'NONE',  ( -42.96138425139354666, 123.2127777851209913, 63.41004786968569817 ) ) ;
#124 = CARTESIAN_POINT ( 'NONE',  ( -80.75472681967839605, 103.5216472773399943, 63.41004786968609608 ) ) ;
#125 =( GEOMETRIC_REPRESENTATION_CONTEXT ( 3 ) GLOBAL_UNCERTAINTY_ASSIGNED_CONTEXT ( ( #122 ) ) GLOBAL_UNIT_ASSIGNED_CONTEXT ( ( #37, #42, #65 ) ) REPRESENTATION_CONTEXT ( 'NONE', 'WORKASPACE' ) );
#126 = CARTESIAN_POINT ( 'NONE',  ( -17.46211739124735018, 129.3141276216023812, 63.41004786968548501 ) ) ;
#127 = ADVANCED_BREP_SHAPE_REPRESENTATION ( 'SF_BLKH_300', ( #302, #82, #190, #111 ), #86 ) ;
#128 = STYLED_ITEM ( 'NONE', ( #216 ), #190 ) ;
#129 = COLOUR_RGB ( '',0.7921568627450980005, 0.8196078431372548767, 0.9333333333333333481 ) ;
#130 = CARTESIAN_POINT ( 'NONE',  ( -42.96138425139395167, -123.2127777851349890, 63.41004786968569817 ) ) ;
#131 = EDGE_LOOP ( 'NONE', ( #103, #105 ) ) ;
#132 = VERTEX_POINT ( 'NONE', #276 ) ;
#133 = EDGE_LOOP ( 'NONE', ( #335 ) ) ;
#134 = COLOUR_RGB ( '',0.7921568627450980005, 0.8196078431372548767, 0.9333333333333333481 ) ;
#135 = CARTESIAN_POINT ( 'NONE',  ( -76.52648851141654518, 105.3296752242582386, 63.41004786968590423 ) ) ;
#136 = CARTESIAN_POINT ( 'NONE',  ( 6.647330622910818510E-12, 152.1644589858584595, 37.32438899455920733 ) ) ;
#137 = ORIENTED_EDGE ( 'NONE', *, *, #219, .T. ) ;
#138 = DIRECTION ( 'NONE',  ( 0.000000000000000000, 1.000000000000000000, 0.000000000000000000 ) ) ;
#139 = DIRECTION ( 'NONE',  ( -1.658212899529295031E-29, 1.000000000000000000, -1.613788192140710016E-15 ) ) ;
#140 = MECHANICAL_DESIGN_GEOMETRIC_PRESENTATION_REPRESENTATION (  '', ( #215 ), #125 ) ;
#141 = CARTESIAN_POINT ( 'NONE',  ( 6.771933018915360321E-12, -1.002387499991054074E-11, 49.45080988066140293 ) ) ;
#142 = FILL_AREA_STYLE ('',( #119 ) ) ;
#143 = CARTESIAN_POINT ( 'NONE',  ( 6.915368127771210527E-12, -7.013256642096620878E-12, 63.41004786968510132 ) ) ;
#144 = CIRCLE ( 'NONE', #61, 130.1946386251703984 ) ;
#145 = CARTESIAN_POINT ( 'NONE',  ( 126.8832876160333996, 33.74446150830785029, 63.41004786968398577 ) ) ;
#146 = CARTESIAN_POINT ( 'NONE',  ( 6.914524811464396789E-12, -130.9729891221400635, 63.32797554359315484 ) ) ;
#147 = CARTESIAN_POINT ( 'NONE',  ( -114.0106556173909951, 65.11242404048250876, 63.41004786968650109 ) ) ;
#148 = CONICAL_SURFACE ( 'NONE', #13, 148.0194638625180232, 1.431169986635346669 ) ;
#149 = CARTESIAN_POINT ( 'NONE',  ( 6.986044354531890815E-12, -43.75966040199942597, 70.28832388863277458 ) ) ;
#150 = CARTESIAN_POINT ( 'NONE',  ( -104.5724440059433960, -79.38930226019709835, 63.41004786968638740 ) ) ;
#151 = CARTESIAN_POINT ( 'NONE',  ( 6.647330622910820933E-12, 0.000000000000000000, 37.32438899455929260 ) ) ;
#152 = AXIS2_PLACEMENT_3D ( 'NONE', #222, #298, #322 ) ;
#153 = EDGE_CURVE ( 'NONE', #257, #257, #117, .T. ) ;
#154 = PRESENTATION_STYLE_ASSIGNMENT (( #27 ) ) ;
#155 =( LENGTH_UNIT ( ) NAMED_UNIT ( * ) SI_UNIT ( .MILLI., .METRE. ) );
#156 = PRODUCT_DEFINITION_FORMATION_WITH_SPECIFIED_SOURCE ( 'ANY', '', #294, .NOT_KNOWN. ) ;
#157 = VERTEX_POINT ( 'NONE', #113 ) ;
#158 = FACE_OUTER_BOUND ( 'NONE', #305, .T. ) ;
#159 = ADVANCED_FACE ( 'NONE', ( #323, #290 ), #94, .T. ) ;
#160 = CARTESIAN_POINT ( 'NONE',  ( 6.771933018915357898E-12, 152.1644589858584879, 49.45080988066116134 ) ) ;
#161 = ORIENTED_EDGE ( 'NONE', *, *, #153, .T. ) ;
#162 =( NAMED_UNIT ( * ) PLANE_ANGLE_UNIT ( ) SI_UNIT ( $, .RADIAN. ) );
#163 = FILL_AREA_STYLE ('',( #1 ) ) ;
#164 =( NAMED_UNIT ( * ) PLANE_ANGLE_UNIT ( ) SI_UNIT ( $, .RADIAN. ) );
#165 = MECHANICAL_DESIGN_GEOMETRIC_PRESENTATION_REPRESENTATION (  '', ( #128 ), #168 ) ;
#166 = CARTESIAN_POINT ( 'NONE',  ( 6.610333712056499812E-12, -130.1946386251858030, 63.41004786968449025 ) ) ;
#167 = DIRECTION ( 'NONE',  ( 1.027528214424256061E-14, -0.000000000000000000, 1.000000000000000000 ) ) ;
#168 =( GEOMETRIC_REPRESENTATION_CONTEXT ( 3 ) GLOBAL_UNCERTAINTY_ASSIGNED_CONTEXT ( ( #96 ) ) GLOBAL_UNIT_ASSIGNED_CONTEXT ( ( #264, #194, #196 ) ) REPRESENTATION_CONTEXT ( 'NONE', 'WORKASPACE' ) );
#169 = FACE_OUTER_BOUND ( 'NONE', #277, .T. ) ;
#170 = PRESENTATION_LAYER_ASSIGNMENT (  '', '', ( #215 ) ) ;
#171 = CARTESIAN_POINT ( 'NONE',  ( 6.986044354531850425E-12, 43.75966040198539986, 70.28832388863277458 ) ) ;
#172 = UNCERTAINTY_MEASURE_WITH_UNIT (LENGTH_MEASURE( 1.000000000000000082E-05 ), #235, 'distance_accuracy_value', 'NONE');
#173 = VERTEX_POINT ( 'NONE', #262 ) ;
#174 = CARTESIAN_POINT ( 'NONE',  ( -104.5724440059429980, 79.38930226018339908, 63.41004786968638740 ) ) ;
#175 =( GEOMETRIC_REPRESENTATION_CONTEXT ( 3 ) GLOBAL_UNCERTAINTY_ASSIGNED_CONTEXT ( ( #202 ) ) GLOBAL_UNIT_ASSIGNED_CONTEXT ( ( #155, #164, #7 ) ) REPRESENTATION_CONTEXT ( 'NONE', 'WORKASPACE' ) );
#176 = CARTESIAN_POINT ( 'NONE',  ( 6.914524811464355592E-12, 130.9729891221260516, 63.32797554359315484 ) ) ;
#177 =( BOUNDED_SURFACE ( )  B_SPLINE_SURFACE ( 3, 3, ( 
 ( #299, #21, #301, #146, #330, #226, #176 ),
 ( #230, #268, #207, #44, #328, #70, #308 ),
 ( #171, #273, #269, #149, #243, #248, #71 ),
 ( #304, #250, #17, #224, #121, #49, #101 ) ),
 .UNSPECIFIED., .F., .T., .F. ) 
 B_SPLINE_SURFACE_WITH_KNOTS ( ( 4, 4 ),
 ( 4, 3, 4 ),
 ( 0.000000000000000000, 1.000000000000000000 ),
 ( 0.000000000000000000, 0.5000000000000000000, 1.000000000000000000 ),
 .UNSPECIFIED. ) 
 GEOMETRIC_REPRESENTATION_ITEM ( )  RATIONAL_B_SPLINE_SURFACE ( (
 ( 1.000000000000000000, 0.3333333333333333148, 0.3333333333333333148, 1.000000000000000000, 0.3333333333333333148, 0.3333333333333333148, 1.000000000000000000),
 ( 0.9991179607244383698, 0.3330393202414794196, 0.3330393202414794196, 0.9991179607244383698, 0.3330393202414794196, 0.3330393202414794196, 0.9991179607244383698),
 ( 0.9991179607244383698, 0.3330393202414794196, 0.3330393202414794196, 0.9991179607244383698, 0.3330393202414794196, 0.3330393202414794196, 0.9991179607244383698),
 ( 1.000000000000000000, 0.3333333333333333148, 0.3333333333333333148, 1.000000000000000000, 0.3333333333333333148, 0.3333333333333333148, 1.000000000000000000) ) ) 
 REPRESENTATION_ITEM ( '' )  SURFACE ( )  );
#178 = EDGE_LOOP ( 'NONE', ( #184 ) ) ;
#179 = CARTESIAN_POINT ( 'NONE',  ( -130.1946386251661920, 16.95327201450389865, 63.41004786968660056 ) ) ;
#180 = CARTESIAN_POINT ( 'NONE',  ( 6.771933018915356282E-12, 149.9999999999899671, 49.45080988066116134 ) ) ;
#181 = AXIS2_PLACEMENT_3D ( 'NONE', #29, #314, #41 ) ;
#182 = DIRECTION ( 'NONE',  ( 1.615544574432569770E-15, 1.000000000000000000, -1.619075244245020021E-15 ) ) ;
#183 = DIRECTION ( 'NONE',  ( 0.000000000000000000, 1.000000000000000000, 0.000000000000000000 ) ) ;
#184 = ORIENTED_EDGE ( 'NONE', *, *, #58, .T. ) ;
#185 = SURFACE_SIDE_STYLE ('',( #214 ) ) ;
#186 = CYLINDRICAL_SURFACE ( 'NONE', #77, 150.0000000000000000 ) ;
#187 = APPLICATION_PROTOCOL_DEFINITION ( 'draft international standard', 'automotive_design', 1998, #51 ) ;
#188 = DIRECTION ( 'NONE',  ( 1.027528214424256061E-14, 0.000000000000000000, 1.000000000000000000 ) ) ;
#189 = ORIENTED_EDGE ( 'NONE', *, *, #92, .F. ) ;
#190 = MANIFOLD_SOLID_BREP ( 'Imported4', #303 ) ;
#191 = DIRECTION ( 'NONE',  ( 1.615544574432570559E-15, 1.000000000000000000, -1.618845394190133018E-15 ) ) ;
#192 = CIRCLE ( 'NONE', #181, 152.1644589858684924 ) ;
#193 = SHAPE_DEFINITION_REPRESENTATION ( #40, #127 ) ;
#194 =( NAMED_UNIT ( * ) PLANE_ANGLE_UNIT ( ) SI_UNIT ( $, .RADIAN. ) );
#195 = SURFACE_STYLE_FILL_AREA ( #293 ) ;
#196 =( NAMED_UNIT ( * ) SI_UNIT ( $, .STERADIAN. ) SOLID_ANGLE_UNIT ( ) );
#197 = AXIS2_PLACEMENT_3D ( 'NONE', #114, #83, #110 ) ;
#198 = CYLINDRICAL_SURFACE ( 'NONE', #84, 152.1644589858684924 ) ;
#199 =( GEOMETRIC_REPRESENTATION_CONTEXT ( 3 ) GLOBAL_UNCERTAINTY_ASSIGNED_CONTEXT ( ( #45 ) ) GLOBAL_UNIT_ASSIGNED_CONTEXT ( ( #80, #283, #109 ) ) REPRESENTATION_CONTEXT ( 'NONE', 'WORKASPACE' ) );
#200 = CARTESIAN_POINT ( 'NONE',  ( -114.0106556173911940, -65.11242404049610855, 63.41004786968650109 ) ) ;
#201 = ORIENTED_EDGE ( 'NONE', *, *, #74, .T. ) ;
#202 = UNCERTAINTY_MEASURE_WITH_UNIT (LENGTH_MEASURE( 1.000000000000000082E-05 ), #155, 'distance_accuracy_value', 'NONE');
#203 = FACE_OUTER_BOUND ( 'NONE', #108, .T. ) ;
#204 = CARTESIAN_POINT ( 'NONE',  ( -34.59347161163979933, -125.8187619879473971, 63.41004786968559870 ) ) ;
#205 = AXIS2_PLACEMENT_3D ( 'NONE', #334, #2, #311 ) ;
#206 = CARTESIAN_POINT ( 'NONE',  ( -130.1946386251661920, -16.95327201451749843, 63.41004786968660056 ) ) ;
#207 = CARTESIAN_POINT ( 'NONE',  ( -174.9117304230696561, -87.45586521154531567, 67.93009365724310555 ) ) ;
#208 = VERTEX_POINT ( 'NONE', #160 ) ;
#209 = VERTEX_POINT ( 'NONE', #36 ) ;
#210 = VERTEX_POINT ( 'NONE', #180 ) ;
#211 = EDGE_LOOP ( 'NONE', ( #50 ) ) ;
#212 = FACE_OUTER_BOUND ( 'NONE', #20, .T. ) ;
#213 = CLOSED_SHELL ( 'NONE', ( #107, #244 ) ) ;
#214 = SURFACE_STYLE_FILL_AREA ( #56 ) ;
#215 = STYLED_ITEM ( 'NONE', ( #63 ), #127 ) ;
#216 = PRESENTATION_STYLE_ASSIGNMENT (( #89 ) ) ;
#217 = APPLICATION_PROTOCOL_DEFINITION ( 'draft international standard', 'automotive_design', 1998, #102 ) ;
#218 = CARTESIAN_POINT ( 'NONE',  ( 130.1946386251801755, 16.95327201450299626, 63.41004786968398577 ) ) ;
#219 = EDGE_CURVE ( 'NONE', #209, #173, #233, .T. ) ;
#220 = FACE_OUTER_BOUND ( 'NONE', #274, .T. ) ;
#221 = CARTESIAN_POINT ( 'NONE',  ( 6.915368127771200026E-12, 130.1946386251717911, 63.41004786968449025 ) ) ;
#222 = CARTESIAN_POINT ( 'NONE',  ( 6.401502156774730957E-12, -1.004873512815665962E-11, 37.32438899455944892 ) ) ;
#223 = AXIS2_PLACEMENT_3D ( 'NONE', #143, #167, #138 ) ;
#224 = CARTESIAN_POINT ( 'NONE',  ( 6.987155135076473398E-12, -7.485304737153696405E-12, 70.39642608271279300 ) ) ;
#225 = EDGE_CURVE ( 'NONE', #132, #132, #18, .T. ) ;
#226 = CARTESIAN_POINT ( 'NONE',  ( 261.9459782442730784, 130.9729891221260516, 63.32797554359046188 ) ) ;
#227 = FACE_BOUND ( 'NONE', #300, .T. ) ;
#228 = CARTESIAN_POINT ( 'NONE',  ( 6.915368127771200026E-12, 130.1946386251717911, 63.41004786968449025 ) ) ;
#229 = COLOUR_RGB ( '',0.7921568627450980005, 0.8196078431372548767, 0.9333333333333333481 ) ;
#230 = CARTESIAN_POINT ( 'NONE',  ( 6.961812873543217652E-12, 87.45586521153130377, 67.93009365724130078 ) ) ;
#231 = ORIENTED_EDGE ( 'NONE', *, *, #285, .T. ) ;
#232 = CARTESIAN_POINT ( 'NONE',  ( 6.263811995130250094E-12, 0.000000000000000000, -1.895017476272185095E-12 ) ) ;
#233 = B_SPLINE_CURVE_WITH_KNOTS ( 'NONE', 3,
 ( #221, #324, #93, #295, #239, #292, #67, #267, #43, #145, #218, #242, #16, #120, #321, #38, #69, #66, #39, #10, #8, #166 ),
 .UNSPECIFIED., .F., .F.,
 ( 4, 2, 2, 2, 2, 2, 2, 2, 2, 2, 4 ),
 ( -410.0647188839280375, -383.8382632282439886, -357.6118075725605081, -306.7519915290279755, -255.8921754854960113, -205.0323594419639903, -154.1725433984319977, -103.3127273548996072, -52.45291131136747254, -26.22645565568382153, 0.000000000000000000 ),
 .UNSPECIFIED. ) ;
#234 = EDGE_LOOP ( 'NONE', ( #60 ) ) ;
#235 =( LENGTH_UNIT ( ) NAMED_UNIT ( * ) SI_UNIT ( .MILLI., .METRE. ) );
#236 = ORIENTED_EDGE ( 'NONE', *, *, #225, .T. ) ;
#237 = PLANE ( 'NONE',  #26 ) ;
#238 = STYLED_ITEM ( 'NONE', ( #35 ), #82 ) ;
#239 = CARTESIAN_POINT ( 'NONE',  ( 42.96138425140809858, 123.2127777851207924, 63.41004786968488816 ) ) ;
#240 = CARTESIAN_POINT ( 'NONE',  ( 5.744764268653290237E-12, -1.015187933717242010E-11, -26.58995213031475302 ) ) ;
#241 = DIRECTION ( 'NONE',  ( 1.027528214424256061E-14, 1.613788192140710016E-15, 1.000000000000000000 ) ) ;
#242 = CARTESIAN_POINT ( 'NONE',  ( 130.1946386251800050, -16.95327201451845056, 63.41004786968398577 ) ) ;
#243 = CARTESIAN_POINT ( 'NONE',  ( 87.51932080399180336, -43.75966040199941887, 70.28832388863187930 ) ) ;
#244 = ADVANCED_FACE ( 'NONE', ( #249 ), #177, .F. ) ;
#245 = PRODUCT_DEFINITION_CONTEXT ( 'detailed design', #102, 'design' ) ;
#246 = CARTESIAN_POINT ( 'NONE',  ( -126.8832876160192171, 33.74446150830870295, 63.41004786968660056 ) ) ;
#247 = EDGE_LOOP ( 'NONE', ( #23 ) ) ;
#248 = CARTESIAN_POINT ( 'NONE',  ( 87.51932080399181757, 43.75966040198539986, 70.28832388863187930 ) ) ;
#249 = FACE_OUTER_BOUND ( 'NONE', #131, .T. ) ;
#250 = CARTESIAN_POINT ( 'NONE',  ( 6.043058944962281955E-12, -6.541208547039584933E-12, 70.39642608271279300 ) ) ;
#251 = MECHANICAL_DESIGN_GEOMETRIC_PRESENTATION_REPRESENTATION (  '', ( #297 ), #199 ) ;
#252 = VERTEX_POINT ( 'NONE', #255 ) ;
#253 = DIRECTION ( 'NONE',  ( -1.027528214424256061E-14, -1.613788192140710016E-15, -1.000000000000000000 ) ) ;
#254 = EDGE_CURVE ( 'NONE', #173, #209, #259, .T. ) ;
#255 = CARTESIAN_POINT ( 'NONE',  ( 6.886767270186125277E-12, 149.9999999999899671, 60.62658585048375670 ) ) ;
#256 = EDGE_LOOP ( 'NONE', ( #236 ) ) ;
#257 = VERTEX_POINT ( 'NONE', #136 ) ;
#258 = DIRECTION ( 'NONE',  ( 1.615544574432569770E-15, 1.000000000000000000, -1.619075244245020021E-15 ) ) ;
#259 = B_SPLINE_CURVE_WITH_KNOTS ( 'NONE', 3,
 ( #327, #75, #46, #204, #130, #99, #97, #150, #200, #271, #206, #179, #246, #147, #174, #124, #19, #123, #22, #126, #98, #228 ),
 .UNSPECIFIED., .F., .F.,
 ( 4, 2, 2, 2, 2, 2, 2, 2, 2, 2, 4 ),
 ( -410.0647188839285491, -383.8382632282445002, -357.6118075725605081, -306.7519915290284871, -255.8921754854960113, -205.0323594419640187, -154.1725433984319977, -103.3127273549000051, -52.45291131136787044, -26.22645565568387838, -5.684341886080801487E-14 ),
 .UNSPECIFIED. ) ;
#260 = ADVANCED_FACE ( 'NONE', ( #227, #203 ), #148, .T. ) ;
#261 = CARTESIAN_POINT ( 'NONE',  ( 6.529601332750470620E-12, -1.002916565331774195E-11, 49.45080988066140293 ) ) ;
#262 = CARTESIAN_POINT ( 'NONE',  ( 6.610333712056499812E-12, -130.1946386251858030, 63.41004786968449025 ) ) ;
#263 = CIRCLE ( 'NONE', #326, 150.0000000000000000 ) ;
#264 =( LENGTH_UNIT ( ) NAMED_UNIT ( * ) SI_UNIT ( .MILLI., .METRE. ) );
#265 = CARTESIAN_POINT ( 'NONE',  ( 6.404998936745951427E-12, 0.000000000000000000, 37.32438899455929260 ) ) ;
#266 = CIRCLE ( 'NONE', #106, 149.9999999999915872 ) ;
#267 = CARTESIAN_POINT ( 'NONE',  ( 104.5724440059574079, 79.38930226018270275, 63.41004786968419893 ) ) ;
#268 = CARTESIAN_POINT ( 'NONE',  ( -174.9117304230696277, 87.45586521153128956, 67.93009365724310555 ) ) ;
#269 = CARTESIAN_POINT ( 'NONE',  ( -87.51932080397783409, -43.75966040199941887, 70.28832388863366987 ) ) ;
#270 = AXIS2_PLACEMENT_3D ( 'NONE', #232, #64, #5 ) ;
#271 = CARTESIAN_POINT ( 'NONE',  ( -126.8832876160194161, -33.74446150832235247, 63.41004786968660056 ) ) ;
#272 = ADVANCED_FACE ( 'NONE', ( #73 ), #52, .T. ) ;
#273 = CARTESIAN_POINT ( 'NONE',  ( -87.51932080397786251, 43.75966040198539986, 70.28832388863366987 ) ) ;
#274 = EDGE_LOOP ( 'NONE', ( #4 ) ) ;
#275 = DIRECTION ( 'NONE',  ( -0.5877852522924779111, 0.8090169943749437875, 4.219042787046525588E-15 ) ) ;
#276 = CARTESIAN_POINT ( 'NONE',  ( 6.647330622910824972E-12, 149.9999999999915872, 37.32438899455929260 ) ) ;
#277 = EDGE_LOOP ( 'NONE', ( #112, #137 ) ) ;
#278 = DIRECTION ( 'NONE',  ( -1.027528214424256061E-14, -1.613788192140715144E-15, -1.000000000000000000 ) ) ;
#279 = ADVANCED_FACE ( 'NONE', ( #313, #315 ), #76, .T. ) ;
#280 = DIRECTION ( 'NONE',  ( 1.615544574432569770E-15, 1.000000000000000000, -1.619075244245020021E-15 ) ) ;
#281 = FILL_AREA_STYLE_COLOUR ( '', #229 ) ;
#282 = CARTESIAN_POINT ( 'NONE',  ( 6.021480308965370086E-12, 0.000000000000000000, -1.818989403545854860E-12 ) ) ;
#283 =( NAMED_UNIT ( * ) PLANE_ANGLE_UNIT ( ) SI_UNIT ( $, .RADIAN. ) );
#284 = SURFACE_SIDE_STYLE ('',( #32 ) ) ;
#285 = EDGE_CURVE ( 'NONE', #78, #78, #144, .T. ) ;
#286 = PRODUCT_CONTEXT ( 'NONE', #51, 'mechanical' ) ;
#287 = DIRECTION ( 'NONE',  ( 1.615544574432581603E-15, 1.000000000000000000, -1.577721810442112173E-29 ) ) ;
#288 = CARTESIAN_POINT ( 'NONE',  ( 5.748261048624490513E-12, -1.015187933717242010E-11, -26.58995213031475302 ) ) ;
#289 = SURFACE_STYLE_FILL_AREA ( #142 ) ;
#290 = FACE_OUTER_BOUND ( 'NONE', #309, .T. ) ;
#291 = COLOUR_RGB ( '',0.7921568627450980005, 0.8196078431372548767, 0.9333333333333333481 ) ;
#292 = CARTESIAN_POINT ( 'NONE',  ( 66.60293160283569591, 113.1463957032867995, 63.41004786968459683 ) ) ;
#293 = FILL_AREA_STYLE ('',( #325 ) ) ;
#294 = PRODUCT ( 'SF_BLKH_300', 'SF_BLKH_300', '', ( #286 ) ) ;
#295 = CARTESIAN_POINT ( 'NONE',  ( 34.59347161165405282, 125.8187619879333994, 63.41004786968488816 ) ) ;
#296 = CLOSED_SHELL ( 'NONE', ( #14, #95, #159, #33, #260, #306 ) ) ;
#297 = STYLED_ITEM ( 'NONE', ( #154 ), #302 ) ;
#298 = DIRECTION ( 'NONE',  ( -1.027528214424256061E-14, -1.613788192140710016E-15, -1.000000000000000000 ) ) ;
#299 = CARTESIAN_POINT ( 'NONE',  ( 6.914524811464355592E-12, 130.9729891221260516, 63.32797554359315484 ) ) ;
#300 = EDGE_LOOP ( 'NONE', ( #231 ) ) ;
#301 = CARTESIAN_POINT ( 'NONE',  ( -261.9459782442590949, -130.9729891221400635, 63.32797554359584069 ) ) ;
#302 = MANIFOLD_SOLID_BREP ( 'Imported2', #296 ) ;
#303 = CLOSED_SHELL ( 'NONE', ( #279, #272, #3 ) ) ;
#304 = CARTESIAN_POINT ( 'NONE',  ( 6.987155135076433817E-12, -6.541208547039545351E-12, 70.39642608271279300 ) ) ;
#305 = EDGE_LOOP ( 'NONE', ( #201 ) ) ;
#306 = ADVANCED_FACE ( 'NONE', ( #59 ), #237, .T. ) ;
#307 = CARTESIAN_POINT ( 'NONE',  ( 7.204903340607420731E-12, -9.109157872444479536E-12, 60.90493205240419883 ) ) ;
#308 = CARTESIAN_POINT ( 'NONE',  ( 6.961812873543217652E-12, 87.45586521153130377, 67.93009365724130078 ) ) ;
#309 = EDGE_LOOP ( 'NONE', ( #189 ) ) ;
#310 = AXIS2_PLACEMENT_3D ( 'NONE', #141, #241, #139 ) ;
#311 = DIRECTION ( 'NONE',  ( 1.615544574432597380E-15, 1.000000000000000000, 0.000000000000000000 ) ) ;
#312 = FACE_OUTER_BOUND ( 'NONE', #133, .T. ) ;
#313 = FACE_OUTER_BOUND ( 'NONE', #256, .T. ) ;
#314 = DIRECTION ( 'NONE',  ( -1.027528214424256061E-14, -1.613788192140710016E-15, -1.000000000000000000 ) ) ;
#315 = FACE_OUTER_BOUND ( 'NONE', #316, .T. ) ;
#316 = EDGE_LOOP ( 'NONE', ( #333 ) ) ;
#317 = PRODUCT_DEFINITION ( 'UNKNOWN', '', #156, #245 ) ;
#318 =( NAMED_UNIT ( * ) SI_UNIT ( $, .STERADIAN. ) SOLID_ANGLE_UNIT ( ) );
#319 = PLANE ( 'NONE',  #270 ) ;
#320 = SURFACE_STYLE_USAGE ( .BOTH. , #11 ) ;
#321 = CARTESIAN_POINT ( 'NONE',  ( 104.5724440059565978, -79.38930226019789416, 63.41004786968419893 ) ) ;
#322 = DIRECTION ( 'NONE',  ( 1.615544574432570559E-15, 1.000000000000000000, -1.596044754835342373E-15 ) ) ;
#323 = FACE_BOUND ( 'NONE', #178, .T. ) ;
#324 = CARTESIAN_POINT ( 'NONE',  ( 8.742150885235719926, 130.1946386923139869, 63.41004786968498763 ) ) ;
#325 = FILL_AREA_STYLE_COLOUR ( '', #291 ) ;
#326 = AXIS2_PLACEMENT_3D ( 'NONE', #62, #34, #280 ) ;
#327 = CARTESIAN_POINT ( 'NONE',  ( 6.610333712056499812E-12, -130.1946386251858030, 63.41004786968449025 ) ) ;
#328 = CARTESIAN_POINT ( 'NONE',  ( 174.9117304230836112, -87.45586521154531567, 67.93009365723949600 ) ) ;
#329 = DIRECTION ( 'NONE',  ( -1.061754398022631969E-14, -2.484129621770390108E-15, -1.000000000000000000 ) ) ;
#330 = CARTESIAN_POINT ( 'NONE',  ( 261.9459782442730216, -130.9729891221400635, 63.32797554359046188 ) ) ;
#331 = PRESENTATION_LAYER_ASSIGNMENT (  '', '', ( #297 ) ) ;
#332 = DIRECTION ( 'NONE',  ( -1.027528214424256061E-14, 0.000000000000000000, -1.000000000000000000 ) ) ;
#333 = ORIENTED_EDGE ( 'NONE', *, *, #9, .T. ) ;
#334 = CARTESIAN_POINT ( 'NONE',  ( 3.010475641248744548E-11, 0.000000000000000000, 2343.806794348354742 ) ) ;
#335 = ORIENTED_EDGE ( 'NONE', *, *, #58, .F. ) ;
#336 = AXIS2_PLACEMENT_3D ( 'NONE', #261, #253, #258 ) ;
ENDSEC;
END-ISO-10303-21;
