ISO-10303-21;
HEADER;
FILE_DESCRIPTION (( 'STEP AP214' ),
    '1' );
FILE_NAME ('SF_CIRC_250.STEP',
    '2022-06-21T07:57:44',
    ( '' ),
    ( '' ),
    'SwSTEP 2.0',
    'SolidWorks 2020',
    '' );
FILE_SCHEMA (( 'AUTOMOTIVE_DESIGN' ));
ENDSEC;

DATA;
#1 = COLOUR_RGB ( '',0.7921568627450980005, 0.8196078431372548767, 0.9333333333333333481 ) ;
#2 = VERTEX_POINT ( 'NONE', #54 ) ;
#3 = ADVANCED_FACE ( 'NONE', ( #159 ), #67, .F. ) ;
#4 =( LENGTH_UNIT ( ) NAMED_UNIT ( * ) SI_UNIT ( .MILLI., .METRE. ) );
#5 = CIRCLE ( 'NONE', #170, 103.9100652418754009 ) ;
#6 = CARTESIAN_POINT ( 'NONE',  ( -33.70824443484117694, 103.7433089642681949, -22.50502758609855292 ) ) ;
#7 = SURFACE_STYLE_USAGE ( .BOTH. , #146 ) ;
#8 = FACE_OUTER_BOUND ( 'NONE', #82, .T. ) ;
#9 = CARTESIAN_POINT ( 'NONE',  ( 211.1652542950370446, 105.5826271475151401, -22.50502758609821186 ) ) ;
#10 = ADVANCED_FACE ( 'NONE', ( #248 ), #29, .F. ) ;
#11 = CARTESIAN_POINT ( 'NONE',  ( 2.312090519041032303E-11, 125.0000000000079154, -28.19918277129409745 ) ) ;
#12 = CARTESIAN_POINT ( 'NONE',  ( 2.312090519041032949E-11, -117.2936327681369875, -22.50502758609814791 ) ) ;
#13 = CARTESIAN_POINT ( 'NONE',  ( 2.267877959915707973E-11, 107.3311174605887999, -22.50502758609820120 ) ) ;
#14 =( NAMED_UNIT ( * ) PLANE_ANGLE_UNIT ( ) SI_UNIT ( $, .RADIAN. ) );
#15 = CARTESIAN_POINT ( 'NONE',  ( 3.945802851124126940E-11, 1.632390472794397401E-11, -90.99999999998578915 ) ) ;
#16 = MECHANICAL_DESIGN_GEOMETRIC_PRESENTATION_REPRESENTATION (  '', ( #73 ), #231 ) ;
#17 = CARTESIAN_POINT ( 'NONE',  ( 2.311596869652075168E-11, 4.263256414560599853E-14, -3.261578034825714845 ) ) ;
#18 = CARTESIAN_POINT ( 'NONE',  ( 2.312090519041032949E-11, 105.5826271475151401, -22.50502758609820830 ) ) ;
#19 = FILL_AREA_STYLE_COLOUR ( '', #179 ) ;
#20 = CARTESIAN_POINT ( 'NONE',  ( 88.27217694030325390, 64.13198826181231027, -22.50502758609855647 ) ) ;
#21 = CARTESIAN_POINT ( 'NONE',  ( 214.6622349211842220, -107.3311174605723863, -22.50502758609820120 ) ) ;
#22 =( LENGTH_UNIT ( ) NAMED_UNIT ( * ) SI_UNIT ( .MILLI., .METRE. ) );
#23 =( NAMED_UNIT ( * ) SI_UNIT ( $, .STERADIAN. ) SOLID_ANGLE_UNIT ( ) );
#24 = PRESENTATION_STYLE_ASSIGNMENT (( #279 ) ) ;
#25 = B_SPLINE_CURVE_WITH_KNOTS ( 'NONE', 3,
 ( #189, #120, #6, #243, #48, #216, #220, #99, #245, #208, #68, #274, #126 ),
 .UNSPECIFIED., .F., .F.,
 ( 4, 1, 1, 1, 1, 1, 1, 1, 1, 1, 4 ),
 ( 0.000000000000000000, 0.1000000000000000056, 0.2000000000000000111, 0.2999999999999999889, 0.4000000000000000222, 0.5000000000000000000, 0.5999999999999999778, 0.6999999999999999556, 0.8000000000000000444, 0.9000000000000000222, 1.000000000000000000 ),
 .UNSPECIFIED. ) ;
#26 = CARTESIAN_POINT ( 'NONE',  ( 2.312090519041035858E-11, -94.99999999999181455, 1.242028702108630568E-11 ) ) ;
#27 = SURFACE_STYLE_FILL_AREA ( #276 ) ;
#28 = PRESENTATION_LAYER_ASSIGNMENT (  '', '', ( #140 ) ) ;
#29 =( BOUNDED_SURFACE ( )  B_SPLINE_SURFACE ( 3, 3, ( 
 ( #286, #34, #222, #18, #9, #174, #183 ),
 ( #40, #101, #312, #79, #260, #65, #42 ),
 ( #111, #129, #227, #107, #194, #201, #273 ),
 ( #134, #53, #147, #125, #224, #21, #150 ),
 ( #12, #103, #198, #302, #86, #180, #282 ),
 ( #63, #190, #296, #11, #142, #223, #172 ),
 ( #271, #52, #244, #144, #246, #275, #32 ),
 ( #195, #55, #251, #35, #234, #157, #109 ),
 ( #255, #232, #202, #135, #261, #228, #66 ),
 ( #287, #132, #313, #61, #15, #43, #284 ) ),
 .UNSPECIFIED., .F., .T., .F. ) 
 B_SPLINE_SURFACE_WITH_KNOTS ( ( 4, 3, 1, 1, 1, 4 ),
 ( 4, 3, 4 ),
 ( -0.002087086338367082333, 0.000000000000000000, 0.03567528416724475432, 0.08258042438529650253, 0.1892025386096169992, 0.3437064735886070088 ),
 ( 0.000000000000000000, 0.5000000000000000000, 1.000000000000000000 ),
 .UNSPECIFIED. ) 
 GEOMETRIC_REPRESENTATION_ITEM ( )  RATIONAL_B_SPLINE_SURFACE ( (
 ( 1.000000000000000000, 0.3333333333333333148, 0.3333333333333333148, 1.000000000000000000, 0.3333333333333333148, 0.3333333333333333148, 1.000000000000000000),
 ( 1.000000000000000000, 0.3333333333333333148, 0.3333333333333333148, 1.000000000000000000, 0.3333333333333333148, 0.3333333333333333148, 1.000000000000000000),
 ( 1.000000000000000000, 0.3333333333333333148, 0.3333333333333333148, 1.000000000000000000, 0.3333333333333333148, 0.3333333333333333148, 1.000000000000000000),
 ( 1.000000000000000000, 0.3333333333333333148, 0.3333333333333333148, 1.000000000000000000, 0.3333333333333333148, 0.3333333333333333148, 1.000000000000000000),
 ( 1.000000000000000000, 0.3333333333333333148, 0.3333333333333333148, 1.000000000000000000, 0.3333333333333333148, 0.3333333333333333148, 1.000000000000000000),
 ( 1.000000000000000000, 0.3333333333333333148, 0.3333333333333333148, 1.000000000000000000, 0.3333333333333333148, 0.3333333333333333148, 1.000000000000000000),
 ( 1.000000000000000000, 0.3333333333333333148, 0.3333333333333333148, 1.000000000000000000, 0.3333333333333333148, 0.3333333333333333148, 1.000000000000000000),
 ( 1.000000000000000000, 0.3333333333333333148, 0.3333333333333333148, 1.000000000000000000, 0.3333333333333333148, 0.3333333333333333148, 1.000000000000000000),
 ( 1.000000000000000000, 0.3333333333333333148, 0.3333333333333333148, 1.000000000000000000, 0.3333333333333333148, 0.3333333333333333148, 1.000000000000000000),
 ( 1.000000000000000000, 0.3333333333333333148, 0.3333333333333333148, 1.000000000000000000, 0.3333333333333333148, 0.3333333333333333148, 1.000000000000000000) ) ) 
 REPRESENTATION_ITEM ( '' )  SURFACE ( )  );
#30 = FACE_OUTER_BOUND ( 'NONE', #205, .T. ) ;
#31 = CARTESIAN_POINT ( 'NONE',  ( 2.294750698592912879E-11, -0.000000000000000000, -22.50502758609820120 ) ) ;
#32 = CARTESIAN_POINT ( 'NONE',  ( 2.312090519041030688E-11, -124.9999999999914166, -41.27631558234995168 ) ) ;
#33 = DIRECTION ( 'NONE',  ( 0.000000000000000000, 0.000000000000000000, 1.000000000000000000 ) ) ;
#34 = CARTESIAN_POINT ( 'NONE',  ( -211.1652542949908025, -105.5826271474988260, -22.50502758609821186 ) ) ;
#35 = CARTESIAN_POINT ( 'NONE',  ( 2.312090519041032626E-11, 109.5299097297529016, -54.31370563790070349 ) ) ;
#36 = DIRECTION ( 'NONE',  ( 1.615544574432581011E-15, -1.000000000000000000, 0.000000000000000000 ) ) ;
#37 = ORIENTED_EDGE ( 'NONE', *, *, #210, .T. ) ;
#38 = ORIENTED_EDGE ( 'NONE', *, *, #145, .T. ) ;
#39 = FACE_BOUND ( 'NONE', #57, .T. ) ;
#40 = CARTESIAN_POINT ( 'NONE',  ( 2.312090519041032949E-11, -106.1654572518566937, -22.50502758609820830 ) ) ;
#41 = DIRECTION ( 'NONE',  ( -0.5877852522924728040, -0.8090169943749476733, 1.356793148953472894E-16 ) ) ;
#42 = CARTESIAN_POINT ( 'NONE',  ( 2.312090519041032949E-11, -106.1654572518566937, -22.50502758609820830 ) ) ;
#43 = CARTESIAN_POINT ( 'NONE',  ( 3.945802851124125647E-11, -1.321859288695728023E-14, -90.99999999998578915 ) ) ;
#44 = DIRECTION ( 'NONE',  ( 0.000000000000000000, -1.000000000000000000, 0.000000000000000000 ) ) ;
#45 = DIRECTION ( 'NONE',  ( 0.000000000000000000, -2.126352932009934895E-45, 1.000000000000000000 ) ) ;
#46 = AXIS2_PLACEMENT_3D ( 'NONE', #182, #155, #105 ) ;
#47 = AXIS2_PLACEMENT_3D ( 'NONE', #160, #45, #235 ) ;
#48 = CARTESIAN_POINT ( 'NONE',  ( -88.27217694025753758, 64.13198826181169920, -22.50502758609854581 ) ) ;
#49 = DIRECTION ( 'NONE',  ( 0.000000000000000000, 0.000000000000000000, 1.000000000000000000 ) ) ;
#50 = DIRECTION ( 'NONE',  ( 0.000000000000000000, -0.000000000000000000, -1.000000000000000000 ) ) ;
#51 = CARTESIAN_POINT ( 'NONE',  ( 2.296742845583926780E-11, -0.000000000000000000, -87.50502758609260923 ) ) ;
#52 = CARTESIAN_POINT ( 'NONE',  ( -249.9999999999760405, -124.9999999999914024, -41.27631558234995879 ) ) ;
#53 = CARTESIAN_POINT ( 'NONE',  ( -214.6622349211380083, -107.3311174605723863, -22.50502758609820120 ) ) ;
#54 = CARTESIAN_POINT ( 'NONE',  ( 2.312090519041034242E-11, -107.3311174605723863, -22.50502758609820120 ) ) ;
#55 = CARTESIAN_POINT ( 'NONE',  ( -219.0598194594663823, -109.5299097297365876, -54.31370563790069639 ) ) ;
#56 =( NAMED_UNIT ( * ) SI_UNIT ( $, .STERADIAN. ) SOLID_ANGLE_UNIT ( ) );
#57 = EDGE_LOOP ( 'NONE', ( #288 ) ) ;
#58 = ORIENTED_EDGE ( 'NONE', *, *, #262, .T. ) ;
#59 = PRODUCT_DEFINITION_CONTEXT ( 'detailed design', #305, 'design' ) ;
#60 = CLOSED_SHELL ( 'NONE', ( #138, #192, #294, #239, #163, #93, #164 ) ) ;
#61 = CARTESIAN_POINT ( 'NONE',  ( 2.312090519041033596E-11, 1.632390472794398371E-11, -90.99999999998580336 ) ) ;
#62 = CARTESIAN_POINT ( 'NONE',  ( 33.70824443488671562, 103.7433089642686070, -22.50502758609854936 ) ) ;
#63 = CARTESIAN_POINT ( 'NONE',  ( 2.312090519041033596E-11, -124.9999999999916014, -28.19918277129409745 ) ) ;
#64 = DIRECTION ( 'NONE',  ( 0.000000000000000000, -2.126352932009934895E-45, 1.000000000000000000 ) ) ;
#65 = CARTESIAN_POINT ( 'NONE',  ( 212.3309145037527799, -106.1654572518566937, -22.50502758609821186 ) ) ;
#66 = CARTESIAN_POINT ( 'NONE',  ( 2.312090519041032303E-11, -56.86026970912560330, -90.99999999998560440 ) ) ;
#67 = PLANE ( 'NONE',  #212 ) ;
#68 = CARTESIAN_POINT ( 'NONE',  ( -33.70824443484082877, -103.7433089642520088, -22.50502758609855292 ) ) ;
#69 = ADVANCED_BREP_SHAPE_REPRESENTATION ( 'SF_CIRC_250', ( #75, #74, #204 ), #266 ) ;
#70 = CARTESIAN_POINT ( 'NONE',  ( 2.312090519041033596E-11, -103.9100652418754009, -19.01968966822139606 ) ) ;
#71 = AXIS2_PLACEMENT_3D ( 'NONE', #177, #229, #206 ) ;
#72 = AXIS2_PLACEMENT_3D ( 'NONE', #166, #49, #76 ) ;
#73 = STYLED_ITEM ( 'NONE', ( #214 ), #75 ) ;
#74 = MANIFOLD_SOLID_BREP ( 'Imported3', #60 ) ;
#75 = MANIFOLD_SOLID_BREP ( 'Imported2', #149 ) ;
#76 = DIRECTION ( 'NONE',  ( 1.615544574432575095E-15, -1.000000000000000000, 0.000000000000000000 ) ) ;
#77 = EDGE_CURVE ( 'NONE', #116, #116, #292, .T. ) ;
#78 = DIRECTION ( 'NONE',  ( 0.000000000000000000, 0.000000000000000000, 1.000000000000000000 ) ) ;
#79 = CARTESIAN_POINT ( 'NONE',  ( 2.312090519041032949E-11, 106.1654572518729935, -22.50502758609820830 ) ) ;
#80 =( LENGTH_UNIT ( ) NAMED_UNIT ( * ) SI_UNIT ( .MILLI., .METRE. ) );
#81 = VERTEX_POINT ( 'NONE', #102 ) ;
#82 = EDGE_LOOP ( 'NONE', ( #38 ) ) ;
#83 = FILL_AREA_STYLE ('',( #186 ) ) ;
#84 = CARTESIAN_POINT ( 'NONE',  ( 64.13636658933737067, 88.28022276978738603, -22.50502758609856002 ) ) ;
#85 = EDGE_LOOP ( 'NONE', ( #307, #58 ) ) ;
#86 = CARTESIAN_POINT ( 'NONE',  ( 234.5872655363133390, 117.2936327681533015, -22.50502758609814791 ) ) ;
#87 = UNCERTAINTY_MEASURE_WITH_UNIT (LENGTH_MEASURE( 1.000000000000000082E-05 ), #4, 'distance_accuracy_value', 'NONE');
#88 = STYLED_ITEM ( 'NONE', ( #89 ), #74 ) ;
#89 = PRESENTATION_STYLE_ASSIGNMENT (( #258 ) ) ;
#90 = DIRECTION ( 'NONE',  ( 0.000000000000000000, -1.992963217804359797E-45, 1.000000000000000000 ) ) ;
#91 = FILL_AREA_STYLE ('',( #19 ) ) ;
#92 = ORIENTED_EDGE ( 'NONE', *, *, #262, .F. ) ;
#93 = ADVANCED_FACE ( 'NONE', ( #141 ), #121, .F. ) ;
#94 = MECHANICAL_DESIGN_GEOMETRIC_PRESENTATION_REPRESENTATION (  '', ( #88 ), #217 ) ;
#95 = DIRECTION ( 'NONE',  ( 1.027528214424256061E-14, 0.000000000000000000, 1.000000000000000000 ) ) ;
#96 = CIRCLE ( 'NONE', #241, 107.3311174605723863 ) ;
#97 = PRODUCT_DEFINITION ( 'UNKNOWN', '', #168, #59 ) ;
#98 = CARTESIAN_POINT ( 'NONE',  ( 2.312090519041032626E-11, 0.000000000000000000, 1.241553032257898280E-11 ) ) ;
#99 = CARTESIAN_POINT ( 'NONE',  ( -103.7711139547204340, -33.71771191540059931, -22.50502758609853515 ) ) ;
#100 = CIRCLE ( 'NONE', #123, 103.9100652418754009 ) ;
#101 = CARTESIAN_POINT ( 'NONE',  ( -212.3309145037065662, -106.1654572518566937, -22.50502758609821186 ) ) ;
#102 = CARTESIAN_POINT ( 'NONE',  ( 2.312090519041032949E-11, -107.3311174605723863, -22.50502758609820120 ) ) ;
#103 = CARTESIAN_POINT ( 'NONE',  ( -234.5872655362671537, -117.2936327681369875, -22.50502758609814791 ) ) ;
#104 = UNCERTAINTY_MEASURE_WITH_UNIT (LENGTH_MEASURE( 1.000000000000000082E-05 ), #22, 'distance_accuracy_value', 'NONE');
#105 = DIRECTION ( 'NONE',  ( 0.000000000000000000, -1.000000000000000000, 0.000000000000000000 ) ) ;
#106 = EDGE_LOOP ( 'NONE', ( #171 ) ) ;
#107 = CARTESIAN_POINT ( 'NONE',  ( 2.312090519041032949E-11, 106.7482873562308470, -22.50502758609820475 ) ) ;
#108 = AXIS2_PLACEMENT_3D ( 'NONE', #98, #219, #218 ) ;
#109 = CARTESIAN_POINT ( 'NONE',  ( 2.312090519041033273E-11, -109.5299097297366018, -54.31370563790070349 ) ) ;
#110 = PLANE ( 'NONE',  #46 ) ;
#111 = CARTESIAN_POINT ( 'NONE',  ( 2.312090519041032949E-11, -106.7482873562145471, -22.50502758609820475 ) ) ;
#112 =( GEOMETRIC_REPRESENTATION_CONTEXT ( 3 ) GLOBAL_UNCERTAINTY_ASSIGNED_CONTEXT ( ( #175 ) ) GLOBAL_UNIT_ASSIGNED_CONTEXT ( ( #80, #14, #178 ) ) REPRESENTATION_CONTEXT ( 'NONE', 'WORKASPACE' ) );
#113 = CARTESIAN_POINT ( 'NONE',  ( 103.7711139547667614, 33.71771191541725443, -22.50502758609856713 ) ) ;
#114 = EDGE_CURVE ( 'NONE', #176, #176, #100, .T. ) ;
#115 = ORIENTED_EDGE ( 'NONE', *, *, #119, .T. ) ;
#116 = VERTEX_POINT ( 'NONE', #264 ) ;
#117 = PRODUCT_DEFINITION_SHAPE ( 'NONE', 'NONE',  #97 ) ;
#118 = FILL_AREA_STYLE_COLOUR ( '', #1 ) ;
#119 = EDGE_CURVE ( 'NONE', #199, #199, #317, .T. ) ;
#120 = CARTESIAN_POINT ( 'NONE',  ( -11.25840920804373013, 107.3906318853841952, -22.50502758609853515 ) ) ;
#121 = PLANE ( 'NONE',  #108 ) ;
#122 = DIRECTION ( 'NONE',  ( 0.000000000000000000, -1.992963217804359797E-45, 1.000000000000000000 ) ) ;
#123 = AXIS2_PLACEMENT_3D ( 'NONE', #167, #191, #247 ) ;
#124 = DIRECTION ( 'NONE',  ( 1.615544574432581603E-15, -1.000000000000000000, 0.000000000000000000 ) ) ;
#125 = CARTESIAN_POINT ( 'NONE',  ( 2.312090519041032949E-11, 107.3311174605887004, -22.50502758609820120 ) ) ;
#126 = CARTESIAN_POINT ( 'NONE',  ( 2.312090519041032949E-11, -107.3311174605723863, -22.50502758609820120 ) ) ;
#127 = CARTESIAN_POINT ( 'NONE',  ( 2.295303384827988821E-11, -0.000000000000000000, -19.01968966822139606 ) ) ;
#128 = EDGE_LOOP ( 'NONE', ( #131 ) ) ;
#129 = CARTESIAN_POINT ( 'NONE',  ( -213.4965747124222730, -106.7482873562145187, -22.50502758609820120 ) ) ;
#130 = DIRECTION ( 'NONE',  ( 4.050121825890070276E-17, -1.997343151348149782E-16, -1.000000000000000000 ) ) ;
#131 = ORIENTED_EDGE ( 'NONE', *, *, #114, .T. ) ;
#132 = CARTESIAN_POINT ( 'NONE',  ( 6.783781869579397670E-12, -1.321859288693063724E-14, -90.99999999998578915 ) ) ;
#133 = CARTESIAN_POINT ( 'NONE',  ( 33.70824443488771749, -103.7433089642520088, -22.50502758609854936 ) ) ;
#134 = CARTESIAN_POINT ( 'NONE',  ( 2.312090519041032949E-11, -107.3311174605723863, -22.50502758609820120 ) ) ;
#135 = CARTESIAN_POINT ( 'NONE',  ( 2.312090519041033596E-11, 56.86026970914191736, -90.99999999998560440 ) ) ;
#136 = CARTESIAN_POINT ( 'NONE',  ( 2.312090519041033273E-11, -103.9100652418754009, -7.347492532481630256 ) ) ;
#137 = AXIS2_PLACEMENT_3D ( 'NONE', #17, #130, #41 ) ;
#138 = ADVANCED_FACE ( 'NONE', ( #30, #297 ), #270, .T. ) ;
#139 = EDGE_LOOP ( 'NONE', ( #185 ) ) ;
#140 = STYLED_ITEM ( 'NONE', ( #24 ), #69 ) ;
#141 = FACE_OUTER_BOUND ( 'NONE', #299, .T. ) ;
#142 = CARTESIAN_POINT ( 'NONE',  ( 250.0000000000226237, 125.0000000000079012, -28.19918277129409034 ) ) ;
#143 = DIRECTION ( 'NONE',  ( 1.615544574432575095E-15, -1.000000000000000000, 0.000000000000000000 ) ) ;
#144 = CARTESIAN_POINT ( 'NONE',  ( 2.312090519041035211E-11, 125.0000000000077165, -41.27631558234995168 ) ) ;
#145 = EDGE_CURVE ( 'NONE', #2, #2, #158, .T. ) ;
#146 = SURFACE_SIDE_STYLE ('',( #27 ) ) ;
#147 = CARTESIAN_POINT ( 'NONE',  ( -214.6622349211379515, 107.3311174605886720, -22.50502758609820120 ) ) ;
#148 = VERTEX_POINT ( 'NONE', #70 ) ;
#149 = CLOSED_SHELL ( 'NONE', ( #3, #10 ) ) ;
#150 = CARTESIAN_POINT ( 'NONE',  ( 2.312090519041032949E-11, -107.3311174605723863, -22.50502758609820120 ) ) ;
#151 = DIRECTION ( 'NONE',  ( 0.000000000000000000, -1.000000000000000000, 0.000000000000000000 ) ) ;
#152 = CARTESIAN_POINT ( 'NONE',  ( 2.294750698592913849E-11, -0.000000000000000000, -19.01968966822139606 ) ) ;
#153 = ORIENTED_EDGE ( 'NONE', *, *, #114, .F. ) ;
#154 =( NAMED_UNIT ( * ) SI_UNIT ( $, .STERADIAN. ) SOLID_ANGLE_UNIT ( ) );
#155 = DIRECTION ( 'NONE',  ( 0.000000000000000000, -0.000000000000000000, -1.000000000000000000 ) ) ;
#156 = EDGE_LOOP ( 'NONE', ( #37 ) ) ;
#157 = CARTESIAN_POINT ( 'NONE',  ( 219.0598194595125960, -109.5299097297365876, -54.31370563790069639 ) ) ;
#158 = CIRCLE ( 'NONE', #249, 107.3311174605723863 ) ;
#159 = FACE_OUTER_BOUND ( 'NONE', #85, .T. ) ;
#160 = CARTESIAN_POINT ( 'NONE',  ( 2.295303384827987205E-11, -0.000000000000000000, -87.50502758609260923 ) ) ;
#161 = CYLINDRICAL_SURFACE ( 'NONE', #47, 103.9100652418754009 ) ;
#162 = COLOUR_RGB ( '',0.7921568627450980005, 0.8196078431372548767, 0.9333333333333333481 ) ;
#163 = ADVANCED_FACE ( 'NONE', ( #8, #193 ), #169, .T. ) ;
#164 = ADVANCED_FACE ( 'NONE', ( #203 ), #310, .T. ) ;
#165 = PRESENTATION_LAYER_ASSIGNMENT (  '', '', ( #88 ) ) ;
#166 = CARTESIAN_POINT ( 'NONE',  ( 2.296742845583928395E-11, -0.000000000000000000, -2.807587535086145003 ) ) ;
#167 = CARTESIAN_POINT ( 'NONE',  ( 2.295303384827988498E-11, -0.000000000000000000, -7.347492532481630256 ) ) ;
#168 = PRODUCT_DEFINITION_FORMATION_WITH_SPECIFIED_SOURCE ( 'ANY', '', #293, .NOT_KNOWN. ) ;
#169 = CYLINDRICAL_SURFACE ( 'NONE', #197, 107.3311174605723863 ) ;
#170 = AXIS2_PLACEMENT_3D ( 'NONE', #127, #64, #36 ) ;
#171 = ORIENTED_EDGE ( 'NONE', *, *, #77, .F. ) ;
#172 = CARTESIAN_POINT ( 'NONE',  ( 2.312090519041033596E-11, -124.9999999999916014, -28.19918277129409745 ) ) ;
#173 = EDGE_LOOP ( 'NONE', ( #153 ) ) ;
#174 = CARTESIAN_POINT ( 'NONE',  ( 211.1652542950371014, -105.5826271474988260, -22.50502758609821186 ) ) ;
#175 = UNCERTAINTY_MEASURE_WITH_UNIT (LENGTH_MEASURE( 1.000000000000000082E-05 ), #80, 'distance_accuracy_value', 'NONE');
#176 = VERTEX_POINT ( 'NONE', #136 ) ;
#177 = CARTESIAN_POINT ( 'NONE',  ( 2.312090519041032949E-11, -0.000000000000000000, -22.50502758609820120 ) ) ;
#178 =( NAMED_UNIT ( * ) SI_UNIT ( $, .STERADIAN. ) SOLID_ANGLE_UNIT ( ) );
#179 = COLOUR_RGB ( '',0.7921568627450980005, 0.8196078431372548767, 0.9333333333333333481 ) ;
#180 = CARTESIAN_POINT ( 'NONE',  ( 234.5872655363134243, -117.2936327681369875, -22.50502758609814791 ) ) ;
#181 = APPLICATION_CONTEXT ( 'automotive_design' ) ;
#182 = CARTESIAN_POINT ( 'NONE',  ( 2.312090519041033596E-11, -0.000000000000000000, -19.01968966822139606 ) ) ;
#183 = CARTESIAN_POINT ( 'NONE',  ( 2.312090519041032949E-11, -105.5826271474988260, -22.50502758609820830 ) ) ;
#184 = SURFACE_SIDE_STYLE ('',( #309 ) ) ;
#185 = ORIENTED_EDGE ( 'NONE', *, *, #145, .F. ) ;
#186 = FILL_AREA_STYLE_COLOUR ( '', #162 ) ;
#187 = APPLICATION_PROTOCOL_DEFINITION ( 'draft international standard', 'automotive_design', 1998, #305 ) ;
#188 =( NAMED_UNIT ( * ) PLANE_ANGLE_UNIT ( ) SI_UNIT ( $, .RADIAN. ) );
#189 = CARTESIAN_POINT ( 'NONE',  ( 2.267877959915707973E-11, 107.3311174605887999, -22.50502758609820120 ) ) ;
#190 = CARTESIAN_POINT ( 'NONE',  ( -249.9999999999763816, -124.9999999999916014, -28.19918277129409034 ) ) ;
#191 = DIRECTION ( 'NONE',  ( 0.000000000000000000, -2.126352932009934895E-45, 1.000000000000000000 ) ) ;
#192 = ADVANCED_FACE ( 'NONE', ( #314, #253 ), #236, .T. ) ;
#193 = FACE_OUTER_BOUND ( 'NONE', #277, .T. ) ;
#194 = CARTESIAN_POINT ( 'NONE',  ( 213.4965747124684299, 106.7482873562308470, -22.50502758609820120 ) ) ;
#195 = CARTESIAN_POINT ( 'NONE',  ( 2.312090519041033273E-11, -109.5299097297366018, -54.31370563790070349 ) ) ;
#196 = ORIENTED_EDGE ( 'NONE', *, *, #77, .T. ) ;
#197 = AXIS2_PLACEMENT_3D ( 'NONE', #298, #78, #124 ) ;
#198 = CARTESIAN_POINT ( 'NONE',  ( -234.5872655362671253, 117.2936327681533015, -22.50502758609814791 ) ) ;
#199 = VERTEX_POINT ( 'NONE', #26 ) ;
#200 = CARTESIAN_POINT ( 'NONE',  ( 88.27217694030396444, -64.13198826179510093, -22.50502758609855647 ) ) ;
#201 = CARTESIAN_POINT ( 'NONE',  ( 213.4965747124685151, -106.7482873562145187, -22.50502758609820120 ) ) ;
#202 = CARTESIAN_POINT ( 'NONE',  ( -113.7205394182443854, 56.86026970914191025, -90.99999999998561862 ) ) ;
#203 = FACE_OUTER_BOUND ( 'NONE', #139, .T. ) ;
#204 = AXIS2_PLACEMENT_3D ( 'NONE', #311, #151, #95 ) ;
#205 = EDGE_LOOP ( 'NONE', ( #196 ) ) ;
#206 = DIRECTION ( 'NONE',  ( 0.000000000000000000, -1.000000000000000000, 0.000000000000000000 ) ) ;
#207 = EDGE_LOOP ( 'NONE', ( #115 ) ) ;
#208 = CARTESIAN_POINT ( 'NONE',  ( -64.13636658929134171, -88.28022276977088723, -22.50502758609854226 ) ) ;
#209 = EDGE_CURVE ( 'NONE', #148, #148, #5, .T. ) ;
#210 = EDGE_CURVE ( 'NONE', #304, #304, #96, .T. ) ;
#211 = AXIS2_PLACEMENT_3D ( 'NONE', #269, #50, #242 ) ;
#212 = AXIS2_PLACEMENT_3D ( 'NONE', #254, #263, #44 ) ;
#213 = PRODUCT_CONTEXT ( 'NONE', #181, 'mechanical' ) ;
#214 = PRESENTATION_STYLE_ASSIGNMENT (( #7 ) ) ;
#215 = APPLICATION_PROTOCOL_DEFINITION ( 'draft international standard', 'automotive_design', 1998, #181 ) ;
#216 = CARTESIAN_POINT ( 'NONE',  ( -103.7711139547206329, 33.71771191541660073, -22.50502758609853515 ) ) ;
#217 =( GEOMETRIC_REPRESENTATION_CONTEXT ( 3 ) GLOBAL_UNCERTAINTY_ASSIGNED_CONTEXT ( ( #104 ) ) GLOBAL_UNIT_ASSIGNED_CONTEXT ( ( #22, #280, #154 ) ) REPRESENTATION_CONTEXT ( 'NONE', 'WORKASPACE' ) );
#218 = DIRECTION ( 'NONE',  ( 0.000000000000000000, -1.000000000000000000, 0.000000000000000000 ) ) ;
#219 = DIRECTION ( 'NONE',  ( 0.000000000000000000, -0.000000000000000000, -1.000000000000000000 ) ) ;
#220 = CARTESIAN_POINT ( 'NONE',  ( -109.1111192134758312, 7.985616334860172186E-12, -22.50502758609853160 ) ) ;
#221 = DIRECTION ( 'NONE',  ( 1.615544574432581603E-15, -1.000000000000000000, 0.000000000000000000 ) ) ;
#222 = CARTESIAN_POINT ( 'NONE',  ( -211.1652542949908025, 105.5826271475151401, -22.50502758609821186 ) ) ;
#223 = CARTESIAN_POINT ( 'NONE',  ( 250.0000000000226237, -124.9999999999916014, -28.19918277129409034 ) ) ;
#224 = CARTESIAN_POINT ( 'NONE',  ( 214.6622349211842220, 107.3311174605886720, -22.50502758609820120 ) ) ;
#225 = FACE_OUTER_BOUND ( 'NONE', #173, .T. ) ;
#226 = CARTESIAN_POINT ( 'NONE',  ( 11.25840920809030976, -107.3906318853679949, -22.50502758609856713 ) ) ;
#227 = CARTESIAN_POINT ( 'NONE',  ( -213.4965747124222162, 106.7482873562308470, -22.50502758609820120 ) ) ;
#228 = CARTESIAN_POINT ( 'NONE',  ( 113.7205394182906417, -56.86026970912560330, -90.99999999998561862 ) ) ;
#229 = DIRECTION ( 'NONE',  ( 0.000000000000000000, -0.000000000000000000, -1.000000000000000000 ) ) ;
#230 = VERTEX_POINT ( 'NONE', #13 ) ;
#231 =( GEOMETRIC_REPRESENTATION_CONTEXT ( 3 ) GLOBAL_UNCERTAINTY_ASSIGNED_CONTEXT ( ( #87 ) ) GLOBAL_UNIT_ASSIGNED_CONTEXT ( ( #4, #188, #56 ) ) REPRESENTATION_CONTEXT ( 'NONE', 'WORKASPACE' ) );
#232 = CARTESIAN_POINT ( 'NONE',  ( -113.7205394182443854, -56.86026970912560330, -90.99999999998561862 ) ) ;
#233 = CARTESIAN_POINT ( 'NONE',  ( 64.13636658933816648, -88.28022276977038985, -22.50502758609856002 ) ) ;
#234 = CARTESIAN_POINT ( 'NONE',  ( 219.0598194595125960, 109.5299097297528874, -54.31370563790069639 ) ) ;
#235 = DIRECTION ( 'NONE',  ( 1.615544574432581011E-15, -1.000000000000000000, 0.000000000000000000 ) ) ;
#236 = CONICAL_SURFACE ( 'NONE', #137, 95.89100652418024140, 1.099557428756427591 ) ;
#237 = SURFACE_SIDE_STYLE ('',( #265 ) ) ;
#238 =( NAMED_UNIT ( * ) PLANE_ANGLE_UNIT ( ) SI_UNIT ( $, .RADIAN. ) );
#239 = ADVANCED_FACE ( 'NONE', ( #256, #39 ), #110, .F. ) ;
#240 = CARTESIAN_POINT ( 'NONE',  ( 2.267877959915707973E-11, 107.3311174605887999, -22.50502758609820120 ) ) ;
#241 = AXIS2_PLACEMENT_3D ( 'NONE', #152, #90, #285 ) ;
#242 = DIRECTION ( 'NONE',  ( 1.615544574432575095E-15, -1.000000000000000000, 0.000000000000000000 ) ) ;
#243 = CARTESIAN_POINT ( 'NONE',  ( -64.13636658929162593, 88.28022276978698812, -22.50502758609854226 ) ) ;
#244 = CARTESIAN_POINT ( 'NONE',  ( -249.9999999999759837, 125.0000000000077165, -41.27631558234995879 ) ) ;
#245 = CARTESIAN_POINT ( 'NONE',  ( -88.27217694025723915, -64.13198826179569778, -22.50502758609854581 ) ) ;
#246 = CARTESIAN_POINT ( 'NONE',  ( 250.0000000000222542, 125.0000000000077165, -41.27631558234995879 ) ) ;
#247 = DIRECTION ( 'NONE',  ( 1.615544574432581011E-15, -1.000000000000000000, 0.000000000000000000 ) ) ;
#248 = FACE_OUTER_BOUND ( 'NONE', #315, .T. ) ;
#249 = AXIS2_PLACEMENT_3D ( 'NONE', #31, #122, #221 ) ;
#250 =( LENGTH_UNIT ( ) NAMED_UNIT ( * ) SI_UNIT ( .MILLI., .METRE. ) );
#251 = CARTESIAN_POINT ( 'NONE',  ( -219.0598194594662971, 109.5299097297528874, -54.31370563790069639 ) ) ;
#252 = PRESENTATION_LAYER_ASSIGNMENT (  '', '', ( #73 ) ) ;
#253 = FACE_BOUND ( 'NONE', #106, .T. ) ;
#254 = CARTESIAN_POINT ( 'NONE',  ( 2.312090519041032626E-11, 8.155343067528520219E-12, -22.50502758609854936 ) ) ;
#255 = CARTESIAN_POINT ( 'NONE',  ( 2.312090519041032303E-11, -56.86026970912560330, -90.99999999998560440 ) ) ;
#256 = FACE_OUTER_BOUND ( 'NONE', #156, .T. ) ;
#257 = ORIENTED_EDGE ( 'NONE', *, *, #209, .T. ) ;
#258 = SURFACE_STYLE_USAGE ( .BOTH. , #184 ) ;
#259 = CARTESIAN_POINT ( 'NONE',  ( 2.312090519041032949E-11, -107.3311174605723863, -22.50502758609820120 ) ) ;
#260 = CARTESIAN_POINT ( 'NONE',  ( 212.3309145037527799, 106.1654572518729793, -22.50502758609821186 ) ) ;
#261 = CARTESIAN_POINT ( 'NONE',  ( 113.7205394182906417, 56.86026970914191025, -90.99999999998561862 ) ) ;
#262 = EDGE_CURVE ( 'NONE', #81, #230, #283, .T. ) ;
#263 = DIRECTION ( 'NONE',  ( 0.000000000000000000, -0.000000000000000000, -1.000000000000000000 ) ) ;
#264 = CARTESIAN_POINT ( 'NONE',  ( 2.312090519041036504E-11, -94.99999999999181455, -2.807587535086145003 ) ) ;
#265 = SURFACE_STYLE_FILL_AREA ( #83 ) ;
#266 =( GEOMETRIC_REPRESENTATION_CONTEXT ( 3 ) GLOBAL_UNCERTAINTY_ASSIGNED_CONTEXT ( ( #303 ) ) GLOBAL_UNIT_ASSIGNED_CONTEXT ( ( #250, #238, #23 ) ) REPRESENTATION_CONTEXT ( 'NONE', 'WORKASPACE' ) );
#267 = EDGE_CURVE ( 'NONE', #230, #81, #25, .T. ) ;
#268 = CARTESIAN_POINT ( 'NONE',  ( 11.25840920808929013, 107.3906318853843942, -22.50502758609856713 ) ) ;
#269 = CARTESIAN_POINT ( 'NONE',  ( 2.296742845583927749E-11, 0.000000000000000000, 1.242028702108630568E-11 ) ) ;
#270 = CYLINDRICAL_SURFACE ( 'NONE', #295, 94.99999999999181455 ) ;
#271 = CARTESIAN_POINT ( 'NONE',  ( 2.312090519041030688E-11, -124.9999999999914166, -41.27631558234995168 ) ) ;
#272 = ORIENTED_EDGE ( 'NONE', *, *, #210, .F. ) ;
#273 = CARTESIAN_POINT ( 'NONE',  ( 2.312090519041032949E-11, -106.7482873562145471, -22.50502758609820475 ) ) ;
#274 = CARTESIAN_POINT ( 'NONE',  ( -11.25840920804339085, -107.3906318853679949, -22.50502758609853515 ) ) ;
#275 = CARTESIAN_POINT ( 'NONE',  ( 250.0000000000222542, -124.9999999999914024, -41.27631558234995879 ) ) ;
#276 = FILL_AREA_STYLE ('',( #118 ) ) ;
#277 = EDGE_LOOP ( 'NONE', ( #272 ) ) ;
#278 = EDGE_LOOP ( 'NONE', ( #257 ) ) ;
#279 = SURFACE_STYLE_USAGE ( .BOTH. , #237 ) ;
#280 =( NAMED_UNIT ( * ) PLANE_ANGLE_UNIT ( ) SI_UNIT ( $, .RADIAN. ) );
#281 = CARTESIAN_POINT ( 'NONE',  ( 109.1111192135221586, 8.659235828378799935E-12, -22.50502758609852094 ) ) ;
#282 = CARTESIAN_POINT ( 'NONE',  ( 2.312090519041032949E-11, -117.2936327681369875, -22.50502758609814791 ) ) ;
#283 = B_SPLINE_CURVE_WITH_KNOTS ( 'NONE', 3,
 ( #259, #226, #133, #233, #200, #306, #281, #113, #20, #84, #62, #268, #240 ),
 .UNSPECIFIED., .F., .F.,
 ( 4, 1, 1, 1, 1, 1, 1, 1, 1, 1, 4 ),
 ( 0.000000000000000000, 0.1000000000000000056, 0.2000000000000000111, 0.2999999999999999889, 0.4000000000000000222, 0.5000000000000000000, 0.5999999999999999778, 0.6999999999999999556, 0.8000000000000000444, 0.9000000000000000222, 1.000000000000000000 ),
 .UNSPECIFIED. ) ;
#284 = CARTESIAN_POINT ( 'NONE',  ( 2.312090519041032303E-11, -1.321859288694325902E-14, -90.99999999998580336 ) ) ;
#285 = DIRECTION ( 'NONE',  ( 1.615544574432581603E-15, -1.000000000000000000, 0.000000000000000000 ) ) ;
#286 = CARTESIAN_POINT ( 'NONE',  ( 2.312090519041032949E-11, -105.5826271474988260, -22.50502758609820830 ) ) ;
#287 = CARTESIAN_POINT ( 'NONE',  ( 2.312090519041032303E-11, -1.321859288694325902E-14, -90.99999999998580336 ) ) ;
#288 = ORIENTED_EDGE ( 'NONE', *, *, #209, .F. ) ;
#289 = FACE_OUTER_BOUND ( 'NONE', #278, .T. ) ;
#290 = MECHANICAL_DESIGN_GEOMETRIC_PRESENTATION_REPRESENTATION (  '', ( #140 ), #112 ) ;
#291 = SHAPE_DEFINITION_REPRESENTATION ( #117, #69 ) ;
#292 = CIRCLE ( 'NONE', #72, 94.99999999999181455 ) ;
#293 = PRODUCT ( 'SF_CIRC_250', 'SF_CIRC_250', '', ( #213 ) ) ;
#294 = ADVANCED_FACE ( 'NONE', ( #289, #225 ), #161, .T. ) ;
#295 = AXIS2_PLACEMENT_3D ( 'NONE', #51, #33, #143 ) ;
#296 = CARTESIAN_POINT ( 'NONE',  ( -249.9999999999763816, 125.0000000000079012, -28.19918277129409034 ) ) ;
#297 = FACE_OUTER_BOUND ( 'NONE', #207, .T. ) ;
#298 = CARTESIAN_POINT ( 'NONE',  ( 2.294750698592911587E-11, -0.000000000000000000, -87.50502758609260923 ) ) ;
#299 = EDGE_LOOP ( 'NONE', ( #301 ) ) ;
#300 = PRODUCT_RELATED_PRODUCT_CATEGORY ( 'part', '', ( #293 ) ) ;
#301 = ORIENTED_EDGE ( 'NONE', *, *, #119, .F. ) ;
#302 = CARTESIAN_POINT ( 'NONE',  ( 2.312090519041032949E-11, 117.2936327681533015, -22.50502758609814791 ) ) ;
#303 = UNCERTAINTY_MEASURE_WITH_UNIT (LENGTH_MEASURE( 1.000000000000000082E-05 ), #250, 'distance_accuracy_value', 'NONE');
#304 = VERTEX_POINT ( 'NONE', #316 ) ;
#305 = APPLICATION_CONTEXT ( 'automotive_design' ) ;
#306 = CARTESIAN_POINT ( 'NONE',  ( 103.7711139547669745, -33.71771191539995272, -22.50502758609856713 ) ) ;
#307 = ORIENTED_EDGE ( 'NONE', *, *, #267, .T. ) ;
#308 = ORIENTED_EDGE ( 'NONE', *, *, #267, .F. ) ;
#309 = SURFACE_STYLE_FILL_AREA ( #91 ) ;
#310 = PLANE ( 'NONE',  #71 ) ;
#311 = CARTESIAN_POINT ( 'NONE',  ( 0.000000000000000000, 0.000000000000000000, 0.000000000000000000 ) ) ;
#312 = CARTESIAN_POINT ( 'NONE',  ( -212.3309145037065662, 106.1654572518729793, -22.50502758609821186 ) ) ;
#313 = CARTESIAN_POINT ( 'NONE',  ( 6.783781869579407364E-12, 1.632390472794399663E-11, -90.99999999998578915 ) ) ;
#314 = FACE_OUTER_BOUND ( 'NONE', #128, .T. ) ;
#315 = EDGE_LOOP ( 'NONE', ( #92, #308 ) ) ;
#316 = CARTESIAN_POINT ( 'NONE',  ( 2.312090519041035211E-11, -107.3311174605723863, -19.01968966822139606 ) ) ;
#317 = CIRCLE ( 'NONE', #211, 94.99999999999181455 ) ;
ENDSEC;
END-ISO-10303-21;
